ISO-10303-21;
HEADER;
/* Generated by software containing ST-Developer
 * from STEP Tools, Inc. (www.steptools.com) 
 */

FILE_DESCRIPTION(
/* description */ (''),
/* implementation_level */ '2;1');

FILE_NAME(
/* name */ 'Eye.step',
/* time_stamp */ '2023-06-01T19:13:39-07:00',
/* author */ (''),
/* organization */ (''),
/* preprocessor_version */ 'ST-DEVELOPER v19.2',
/* originating_system */ 'Autodesk Translation Framework v12.6.0.85',
/* authorisation */ '');

FILE_SCHEMA (('AUTOMOTIVE_DESIGN { 1 0 10303 214 3 1 1 }'));
ENDSEC;

DATA;
#10=MECHANICAL_DESIGN_GEOMETRIC_PRESENTATION_REPRESENTATION('',(#13),#215);
#11=SHAPE_REPRESENTATION_RELATIONSHIP('SRR','None',#222,#12);
#12=ADVANCED_BREP_SHAPE_REPRESENTATION('',(#14),#214);
#13=STYLED_ITEM('',(#232),#14);
#14=MANIFOLD_SOLID_BREP('Body1',#115);
#15=FACE_BOUND('',#34,.T.);
#16=FACE_BOUND('',#36,.T.);
#17=FACE_BOUND('',#38,.T.);
#18=FACE_BOUND('',#42,.T.);
#19=PLANE('',#135);
#20=PLANE('',#136);
#21=PLANE('',#138);
#22=PLANE('',#144);
#23=FACE_OUTER_BOUND('',#31,.T.);
#24=FACE_OUTER_BOUND('',#32,.T.);
#25=FACE_OUTER_BOUND('',#33,.T.);
#26=FACE_OUTER_BOUND('',#35,.T.);
#27=FACE_OUTER_BOUND('',#37,.T.);
#28=FACE_OUTER_BOUND('',#39,.T.);
#29=FACE_OUTER_BOUND('',#40,.T.);
#30=FACE_OUTER_BOUND('',#41,.T.);
#31=EDGE_LOOP('',(#79,#80,#81,#82));
#32=EDGE_LOOP('',(#83,#84,#85,#86));
#33=EDGE_LOOP('',(#87));
#34=EDGE_LOOP('',(#88));
#35=EDGE_LOOP('',(#89));
#36=EDGE_LOOP('',(#90));
#37=EDGE_LOOP('',(#91));
#38=EDGE_LOOP('',(#92));
#39=EDGE_LOOP('',(#93,#94,#95,#96));
#40=EDGE_LOOP('',(#97,#98,#99,#100));
#41=EDGE_LOOP('',(#101));
#42=EDGE_LOOP('',(#102));
#43=LINE('',#188,#47);
#44=LINE('',#194,#48);
#45=LINE('',#206,#49);
#46=LINE('',#210,#50);
#47=VECTOR('',#151,11.75);
#48=VECTOR('',#158,13.);
#49=VECTOR('',#175,10.);
#50=VECTOR('',#180,11.75);
#51=CIRCLE('',#130,11.75);
#52=CIRCLE('',#131,11.75);
#53=CIRCLE('',#133,13.);
#54=CIRCLE('',#134,13.);
#55=CIRCLE('',#137,11.75);
#56=CIRCLE('',#139,10.);
#57=CIRCLE('',#141,10.);
#58=CIRCLE('',#143,11.75);
#59=VERTEX_POINT('',#185);
#60=VERTEX_POINT('',#187);
#61=VERTEX_POINT('',#191);
#62=VERTEX_POINT('',#193);
#63=VERTEX_POINT('',#198);
#64=VERTEX_POINT('',#201);
#65=VERTEX_POINT('',#204);
#66=VERTEX_POINT('',#208);
#67=EDGE_CURVE('',#59,#59,#51,.T.);
#68=EDGE_CURVE('',#59,#60,#43,.T.);
#69=EDGE_CURVE('',#60,#60,#52,.T.);
#70=EDGE_CURVE('',#61,#61,#53,.T.);
#71=EDGE_CURVE('',#61,#62,#44,.T.);
#72=EDGE_CURVE('',#62,#62,#54,.T.);
#73=EDGE_CURVE('',#63,#63,#55,.T.);
#74=EDGE_CURVE('',#64,#64,#56,.T.);
#75=EDGE_CURVE('',#65,#65,#57,.T.);
#76=EDGE_CURVE('',#65,#64,#45,.T.);
#77=EDGE_CURVE('',#66,#66,#58,.T.);
#78=EDGE_CURVE('',#66,#63,#46,.T.);
#79=ORIENTED_EDGE('',*,*,#67,.F.);
#80=ORIENTED_EDGE('',*,*,#68,.T.);
#81=ORIENTED_EDGE('',*,*,#69,.F.);
#82=ORIENTED_EDGE('',*,*,#68,.F.);
#83=ORIENTED_EDGE('',*,*,#70,.F.);
#84=ORIENTED_EDGE('',*,*,#71,.T.);
#85=ORIENTED_EDGE('',*,*,#72,.T.);
#86=ORIENTED_EDGE('',*,*,#71,.F.);
#87=ORIENTED_EDGE('',*,*,#70,.T.);
#88=ORIENTED_EDGE('',*,*,#67,.T.);
#89=ORIENTED_EDGE('',*,*,#72,.F.);
#90=ORIENTED_EDGE('',*,*,#73,.F.);
#91=ORIENTED_EDGE('',*,*,#69,.T.);
#92=ORIENTED_EDGE('',*,*,#74,.T.);
#93=ORIENTED_EDGE('',*,*,#75,.F.);
#94=ORIENTED_EDGE('',*,*,#76,.T.);
#95=ORIENTED_EDGE('',*,*,#74,.F.);
#96=ORIENTED_EDGE('',*,*,#76,.F.);
#97=ORIENTED_EDGE('',*,*,#77,.F.);
#98=ORIENTED_EDGE('',*,*,#78,.T.);
#99=ORIENTED_EDGE('',*,*,#73,.T.);
#100=ORIENTED_EDGE('',*,*,#78,.F.);
#101=ORIENTED_EDGE('',*,*,#77,.T.);
#102=ORIENTED_EDGE('',*,*,#75,.T.);
#103=CYLINDRICAL_SURFACE('',#129,11.75);
#104=CYLINDRICAL_SURFACE('',#132,13.);
#105=CYLINDRICAL_SURFACE('',#140,10.);
#106=CYLINDRICAL_SURFACE('',#142,11.75);
#107=ADVANCED_FACE('',(#23),#103,.F.);
#108=ADVANCED_FACE('',(#24),#104,.T.);
#109=ADVANCED_FACE('',(#25,#15),#19,.T.);
#110=ADVANCED_FACE('',(#26,#16),#20,.F.);
#111=ADVANCED_FACE('',(#27,#17),#21,.T.);
#112=ADVANCED_FACE('',(#28),#105,.F.);
#113=ADVANCED_FACE('',(#29),#106,.T.);
#114=ADVANCED_FACE('',(#30,#18),#22,.F.);
#115=CLOSED_SHELL('',(#107,#108,#109,#110,#111,#112,#113,#114));
#116=DERIVED_UNIT_ELEMENT(#118,1.);
#117=DERIVED_UNIT_ELEMENT(#217,-3.);
#118=(
MASS_UNIT()
NAMED_UNIT(*)
SI_UNIT(.KILO.,.GRAM.)
);
#119=DERIVED_UNIT((#116,#117));
#120=MEASURE_REPRESENTATION_ITEM('density measure',
POSITIVE_RATIO_MEASURE(7850.),#119);
#121=PROPERTY_DEFINITION_REPRESENTATION(#126,#123);
#122=PROPERTY_DEFINITION_REPRESENTATION(#127,#124);
#123=REPRESENTATION('material name',(#125),#214);
#124=REPRESENTATION('density',(#120),#214);
#125=DESCRIPTIVE_REPRESENTATION_ITEM('Steel','Steel');
#126=PROPERTY_DEFINITION('material property','material name',#224);
#127=PROPERTY_DEFINITION('material property','density of part',#224);
#128=AXIS2_PLACEMENT_3D('',#183,#145,#146);
#129=AXIS2_PLACEMENT_3D('',#184,#147,#148);
#130=AXIS2_PLACEMENT_3D('',#186,#149,#150);
#131=AXIS2_PLACEMENT_3D('',#189,#152,#153);
#132=AXIS2_PLACEMENT_3D('',#190,#154,#155);
#133=AXIS2_PLACEMENT_3D('',#192,#156,#157);
#134=AXIS2_PLACEMENT_3D('',#195,#159,#160);
#135=AXIS2_PLACEMENT_3D('',#196,#161,#162);
#136=AXIS2_PLACEMENT_3D('',#197,#163,#164);
#137=AXIS2_PLACEMENT_3D('',#199,#165,#166);
#138=AXIS2_PLACEMENT_3D('',#200,#167,#168);
#139=AXIS2_PLACEMENT_3D('',#202,#169,#170);
#140=AXIS2_PLACEMENT_3D('',#203,#171,#172);
#141=AXIS2_PLACEMENT_3D('',#205,#173,#174);
#142=AXIS2_PLACEMENT_3D('',#207,#176,#177);
#143=AXIS2_PLACEMENT_3D('',#209,#178,#179);
#144=AXIS2_PLACEMENT_3D('',#211,#181,#182);
#145=DIRECTION('axis',(0.,0.,1.));
#146=DIRECTION('refdir',(1.,0.,0.));
#147=DIRECTION('center_axis',(0.,1.,0.));
#148=DIRECTION('ref_axis',(-1.,0.,0.));
#149=DIRECTION('center_axis',(0.,-1.,-6.78137341159071E-17));
#150=DIRECTION('ref_axis',(-1.,0.,0.));
#151=DIRECTION('',(0.,-1.,0.));
#152=DIRECTION('center_axis',(0.,1.,6.78137341159071E-17));
#153=DIRECTION('ref_axis',(-1.,0.,0.));
#154=DIRECTION('center_axis',(0.,1.,0.));
#155=DIRECTION('ref_axis',(-1.,0.,0.));
#156=DIRECTION('center_axis',(0.,1.,6.78137341159071E-17));
#157=DIRECTION('ref_axis',(-1.,0.,0.));
#158=DIRECTION('',(0.,-1.,0.));
#159=DIRECTION('center_axis',(0.,1.,6.78137341159071E-17));
#160=DIRECTION('ref_axis',(-1.,0.,0.));
#161=DIRECTION('center_axis',(0.,1.,6.78137341159071E-17));
#162=DIRECTION('ref_axis',(-1.,0.,0.));
#163=DIRECTION('center_axis',(0.,1.,6.78137341159071E-17));
#164=DIRECTION('ref_axis',(-1.,0.,0.));
#165=DIRECTION('center_axis',(0.,-1.,-6.78137341159071E-17));
#166=DIRECTION('ref_axis',(-1.,0.,0.));
#167=DIRECTION('center_axis',(0.,1.,6.78137341159071E-17));
#168=DIRECTION('ref_axis',(-1.,0.,0.));
#169=DIRECTION('center_axis',(0.,-1.,-6.78137341159071E-17));
#170=DIRECTION('ref_axis',(-1.,0.,0.));
#171=DIRECTION('center_axis',(0.,-1.,0.));
#172=DIRECTION('ref_axis',(-1.,0.,0.));
#173=DIRECTION('center_axis',(0.,1.,6.78137341159071E-17));
#174=DIRECTION('ref_axis',(-1.,0.,0.));
#175=DIRECTION('',(0.,1.,0.));
#176=DIRECTION('center_axis',(0.,-1.,0.));
#177=DIRECTION('ref_axis',(-1.,0.,0.));
#178=DIRECTION('center_axis',(0.,-1.,-6.78137341159071E-17));
#179=DIRECTION('ref_axis',(-1.,0.,0.));
#180=DIRECTION('',(0.,1.,0.));
#181=DIRECTION('center_axis',(0.,1.,6.78137341159071E-17));
#182=DIRECTION('ref_axis',(-1.,0.,0.));
#183=CARTESIAN_POINT('',(0.,0.,0.));
#184=CARTESIAN_POINT('Origin',(-0.043757000002298,14.,-108.795235000001));
#185=CARTESIAN_POINT('',(11.7062429999977,20.,-108.795235000001));
#186=CARTESIAN_POINT('Origin',(-0.043757000002298,20.,-108.795235000001));
#187=CARTESIAN_POINT('',(11.7062429999977,19.,-108.795235000001));
#188=CARTESIAN_POINT('',(11.7062429999977,14.,-108.795235000001));
#189=CARTESIAN_POINT('Origin',(-0.043757000002298,19.,-108.795235000001));
#190=CARTESIAN_POINT('Origin',(-0.043757000002298,14.,-108.795235000001));
#191=CARTESIAN_POINT('',(12.9562429999977,20.,-108.795235000001));
#192=CARTESIAN_POINT('Origin',(-0.043757000002298,20.,-108.795235000001));
#193=CARTESIAN_POINT('',(12.9562429999977,14.,-108.795235000001));
#194=CARTESIAN_POINT('',(12.9562429999977,14.,-108.795235000001));
#195=CARTESIAN_POINT('Origin',(-0.043757000002298,14.,-108.795235000001));
#196=CARTESIAN_POINT('Origin',(-0.043757000002298,20.,-108.795235000001));
#197=CARTESIAN_POINT('Origin',(-0.043757000002298,14.,-108.795235000001));
#198=CARTESIAN_POINT('',(11.7062429999977,14.,-108.795235000001));
#199=CARTESIAN_POINT('Origin',(-0.043757000002298,14.,-108.795235000001));
#200=CARTESIAN_POINT('Origin',(-0.043757000002298,19.,-108.795235000001));
#201=CARTESIAN_POINT('',(9.9562429999977,19.,-108.795235000001));
#202=CARTESIAN_POINT('Origin',(-0.043757000002298,19.,-108.795235000001));
#203=CARTESIAN_POINT('Origin',(-0.043757000002298,14.,-108.795235000001));
#204=CARTESIAN_POINT('',(9.9562429999977,1.7,-108.795235000001));
#205=CARTESIAN_POINT('Origin',(-0.043757000002298,1.7,-108.795235000001));
#206=CARTESIAN_POINT('',(9.9562429999977,14.,-108.795235000001));
#207=CARTESIAN_POINT('Origin',(-0.043757000002298,14.,-108.795235000001));
#208=CARTESIAN_POINT('',(11.7062429999977,1.7,-108.795235000001));
#209=CARTESIAN_POINT('Origin',(-0.043757000002298,1.7,-108.795235000001));
#210=CARTESIAN_POINT('',(11.7062429999977,14.,-108.795235000001));
#211=CARTESIAN_POINT('Origin',(-0.043757000002298,1.7,-108.795235000001));
#212=UNCERTAINTY_MEASURE_WITH_UNIT(LENGTH_MEASURE(0.01),#216,
'DISTANCE_ACCURACY_VALUE',
'Maximum model space distance between geometric entities at asserted c
onnectivities');
#213=UNCERTAINTY_MEASURE_WITH_UNIT(LENGTH_MEASURE(0.01),#216,
'DISTANCE_ACCURACY_VALUE',
'Maximum model space distance between geometric entities at asserted c
onnectivities');
#214=(
GEOMETRIC_REPRESENTATION_CONTEXT(3)
GLOBAL_UNCERTAINTY_ASSIGNED_CONTEXT((#212))
GLOBAL_UNIT_ASSIGNED_CONTEXT((#216,#218,#219))
REPRESENTATION_CONTEXT('','3D')
);
#215=(
GEOMETRIC_REPRESENTATION_CONTEXT(3)
GLOBAL_UNCERTAINTY_ASSIGNED_CONTEXT((#213))
GLOBAL_UNIT_ASSIGNED_CONTEXT((#216,#218,#219))
REPRESENTATION_CONTEXT('','3D')
);
#216=(
LENGTH_UNIT()
NAMED_UNIT(*)
SI_UNIT(.MILLI.,.METRE.)
);
#217=(
LENGTH_UNIT()
NAMED_UNIT(*)
SI_UNIT($,.METRE.)
);
#218=(
NAMED_UNIT(*)
PLANE_ANGLE_UNIT()
SI_UNIT($,.RADIAN.)
);
#219=(
NAMED_UNIT(*)
SI_UNIT($,.STERADIAN.)
SOLID_ANGLE_UNIT()
);
#220=SHAPE_DEFINITION_REPRESENTATION(#221,#222);
#221=PRODUCT_DEFINITION_SHAPE('',$,#224);
#222=SHAPE_REPRESENTATION('',(#128),#214);
#223=PRODUCT_DEFINITION_CONTEXT('part definition',#228,'design');
#224=PRODUCT_DEFINITION('Eye','Eye',#225,#223);
#225=PRODUCT_DEFINITION_FORMATION('',$,#230);
#226=PRODUCT_RELATED_PRODUCT_CATEGORY('Eye','Eye',(#230));
#227=APPLICATION_PROTOCOL_DEFINITION('international standard',
'automotive_design',2009,#228);
#228=APPLICATION_CONTEXT(
'Core Data for Automotive Mechanical Design Process');
#229=PRODUCT_CONTEXT('part definition',#228,'mechanical');
#230=PRODUCT('Eye','Eye',$,(#229));
#231=PRESENTATION_STYLE_ASSIGNMENT((#233));
#232=PRESENTATION_STYLE_ASSIGNMENT((#234));
#233=SURFACE_STYLE_USAGE(.BOTH.,#235);
#234=SURFACE_STYLE_USAGE(.BOTH.,#236);
#235=SURFACE_SIDE_STYLE('',(#237));
#236=SURFACE_SIDE_STYLE('',(#238));
#237=SURFACE_STYLE_FILL_AREA(#239);
#238=SURFACE_STYLE_FILL_AREA(#240);
#239=FILL_AREA_STYLE('Steel - Satin',(#241));
#240=FILL_AREA_STYLE('Rubber - Hard',(#242));
#241=FILL_AREA_STYLE_COLOUR('Steel - Satin',#243);
#242=FILL_AREA_STYLE_COLOUR('Rubber - Hard',#244);
#243=COLOUR_RGB('Steel - Satin',0.627450980392157,0.627450980392157,0.627450980392157);
#244=COLOUR_RGB('Rubber - Hard',0.376470588235294,0.376470588235294,0.376470588235294);
ENDSEC;
END-ISO-10303-21;
